Find the best tutors and institutes for Guitar

Find Best Guitar Classes

Please select a Category.

Please select a Locality.

No matching category found.

No matching Locality found.

Outside India?

Guitar Updates

Ask a Question

Post a Lesson

All

All

Lessons

Discussion

Lesson Posted on 12 Jul Music/Instrumental Music/Guitar Music/Instrumental Music/Guitar/Indian classical Music/Instrumental Music/Guitar/Jazz & Blues

Strumming Patterns | Beginner Guitar Lesson in Hindi

Gourav Singh

The Acoustican Guitar Classes was formed in 2013 with the vision to spread the real music education....

Comments
Dislike Bookmark

Lesson Posted on 12 Jul Music/Instrumental Music/Guitar/Country Folk Music/Instrumental Music/Guitar

Strumming Patterns 2 | Beginner Guitar Lesson in Hindi

Gourav Singh

The Acoustican Guitar Classes was formed in 2013 with the vision to spread the real music education....

Comments
Dislike Bookmark

Lesson Posted on 22 Jul Music/Instrumental Music/Guitar

Malequena

Sudip

I teach basic theory before approaching the instrument. Persistence and patience are my strengths and...

Maleguena: An amazing piece, can be done in plectrum guitar and fingerstyle as well
Comments
Dislike Bookmark

Looking for Guitar Classes

Find best Guitar Classes in your locality on UrbanPro.

FIND NOW

Lesson Posted on 21 May Music/Instrumental Music/Guitar

The CAGED System in Guitar

Prateek Chachra

7 years into guitar, countless live performances. Experience with 5 different bands as a bass guitarist,...

The CAGED system is one of the most sophisticated systems ever to teach guitar. Here's an easy way to explain the theory:C, A, G, E and D Major are the only open chords on a standard tuning guitar, and to play other chords we have to assume a shape. Most Barred chords that are played on the E string... read more

The CAGED system is one of the most sophisticated systems ever to teach guitar. Here's an easy way to explain the theory:
C, A, G, E and D Major are the only open chords on a standard tuning guitar, and to play other chords we have to assume a shape. Most Barred chords that are played on the E string take the E position, and the A string the A position. Similar for D string (even though it's rarely used).
The system also helps us identify different possible patterns for scales across the board. Learning guitar is all about identifying trends, and every scale is a combination of these patterns. The minor pentatonic scale, for instance, can be played across the board in 5 positions, and you guessed it right! The positions assume the patterns taken by the CAGED chords, hence five positions. It's the same for major and minor scales, Also for jazz-based modes on guitar.
CAGED is an easy way to approach learning guitar and the music theory behind the rhythmic and the solo patterns on a guitar.

read less
Comments
Dislike Bookmark

Lesson Posted on 16 May Music/Instrumental Music/Guitar

A Tip to learn Guitar that will help you a lot in improvisation.

Prateek Chachra

7 years into guitar, countless live performances. Experience with 5 different bands as a bass guitarist,...

A guitar is a non-linear instrument. That is to say, across the board there is no consistent flow of notes. The guitar works on a 4th tuning principle, which means that the standard tuning EADGBE is followed on the principle that every other string is tuned to the 4th interval of the string below it.... read more

A guitar is a non-linear instrument. That is to say, across the board there is no consistent flow of notes. The guitar works on a 4th tuning principle, which means that the standard tuning EADGBE is followed on the principle that every other string is tuned to the 4th interval of the string below it. For instance, A is the 4th of E, D is the 4th of A and so on.

 

 

Hence thinking of a guitar as 6 different pianos stacked up together with different starting points might help you figure out how to improvise on a guitar. Every other principle works the same, just the non linearity is the only concern. remembering that a step down a string will have you move 4 intervals makes it easier to remember where you are in a scale, hence making it easier to improvise.

read less
Comments
Dislike Bookmark

Lesson Posted on 19 Mar Music/Instrumental Music/Guitar Music

Our student covers Dream Theater

Trill Route Music Academy

Trill Route Music Academy : Founded by two two award winning musicians primarily focus on the quality...

Watch our student Ravi Prakash covering this challenging guitar solo by John Petrucci
Comments
Dislike Bookmark

Answered on 31 Jan Music/Instrumental Music/Guitar

Udaya Kumar Nari

Tabla Rishi

Hi... It should be between 1500 to 2k... And also depends on where you are giving for repair.
Answers 20 Comments 1
Dislike Bookmark

Answered on 09/11/2018 Tuition Fee Music/Instrumental Music/Guitar

Sayan Bhattacharya

Youth Musicians

In my opinon you definitely need a teacher to prevent you from developing bad habits but the price is too high in my opinion (though I do not know your level or the teacher's quality of lesson). And about the ear training I think if you are above 16 it is not mandatory to have a teacher for your ear... read more

In my opinon you definitely need a teacher to prevent you from developing bad habits but the price is too high in my opinion (though I do not know your level or the teacher's quality of lesson).

And about the ear training I think if you are above 16 it is not mandatory to have a teacher for your ear training. You just have to practice hearing the different intervals, chords etc for atleast 30 mins a day to improve your relative pitch. 

read less
Answers 35 Comments
Dislike Bookmark

Lesson Posted on 07/05/2017 Music/Instrumental Music/Guitar Music/Instrumental Music/Guitar/Indian Film music

Baazigar O Baazigar - Guitar Tabs

Aman

Baazigar O Baazigar - Guitar Tabs E---5-5----6-5-------5---------------------B--------8-------8-6----8-6-5-8-6-5---6--G-------------------------------------7----D----------------------------------------A----------------------------------------E----------------------------------------Mera dil tha akela,... read more

Baazigar O Baazigar - Guitar Tabs


E---5-5----6-5-------5---------------------
B--------8-------8-6----8-6-5-8-6-5---6--
G-------------------------------------7----
D----------------------------------------
A----------------------------------------
E----------------------------------------
Mera dil tha akela, tune khel aisa khela


E----------------------------------------
B---5-----5------------------------------
G-----7-5---7-5----5------------5-5-6-6-7---
D----------------8----8-7-7-8-8--------------
A----------------------------------------
E----------------------------------------
Teri yaad main jagoon raat bhar


E----------------------------------------
B-------5-8-8-6-5/6-5---------------------
G-----6----------------7--------------------
D---7------------------------------------
A----------------------------------------
E----------------------------------------
Baazigar O'Baazigar
Tu hai bada jaadugar (Same)


E--5-5------------------------------------------
B-------8-6/5-5-----5-5-------------5-8-6-5-6-6----
G-----------------7--------------6-----------------
D---------------------------7-------------------
A-----------------------------------------------
E-----------------------------------------------
Chupke se aankhon ke raste, woh mera dil main samaya,

 

E-----------------------------------------------
B--6-6-5----------------------------5------------
G---------7-5------5-----------5-7----5---5------
D--------------8-7-----8-8--8------------8-----8-7
A-----------------------------------------------
E-----------------------------------------------
Chaahat ka jaadu jagaa kar, mujhko deewana banaaya.

 

E--5-5-5-5-6-5-8-8-6-5--------------------8-6-5-5----
B-------------------------8---8-8-8-5-8-5------------
G-------------------------------------------------
D-------------------------------------------------
A-------------------------------------------------
E-------------------------------------------------
Pehli nazar main bani hai, tu meray sapnoo ki rani

 

E--5-5-5-6----10--8-8--6---5-----------------8-6-5-5--
B-------------------------------8-----8-8-8-5----
G--------------------------------------------------
D--------------------------------------------------
A--------------------------------------------------
E--------------------------------------------------
Yaad rakhay gi ye duniya, apni wafa ki kahani

 

E---5-5---6-5------5----------------------
B-------8------8-6----8-6-5-8-6-5-----6---
G-------------------------------------7-----
D----------------------------------------
A----------------------------------------
E----------------------------------------
Tere pyaar pe qurban mera dil meri jaan

 

E-----------------------------------
B-5------5---------------------------
G---7-5----5-----5---------------5-5-6-6-7-
D-------------8------8-7-7-8-8------------
A-----------------------------------
E-----------------------------------
Tujhe lag jaaye meri umar

 

E---------------------------------
B--------5-8-8-6-5/6-5---------------
G-----6-----------------7-------------
D---7-----------------------------
A---------------------------------
E---------------------------------
Baazigar O'Baazigar


-Aman Strings +917696842914

read less
Comments 1
Dislike Bookmark

Looking for Guitar Classes

Find best Guitar Classes in your locality on UrbanPro.

FIND NOW

Lesson Posted on 08/03/2017 Music/Instrumental Music/Keyboard Music/Instrumental Music/Piano Music/Instrumental Music/Guitar

Family Chords for C Major Scale

Kevin Paul

I am an experienced piano and keyboard tutor with 5 years of teaching various genres of music like rock,...

The 6 commonly used family chords for C scale melody are C Major - C E G F Major - F A C G Major - G B D Am(Aminor) - A C E Dm(Dminor) - D F A Em(Eminor) - E G B Using these chords most of the songs that are play in the key of "C" can be accompanied. Watch out for more!!! read more

The 6 commonly used family chords for C scale melody are

C Major - C E G

F Major - F A C

G Major - G B D

Am(Aminor) - A C E

Dm(Dminor) - D F A

Em(Eminor) - E G B

 

Using these chords most of the songs that are play in the key of "C" can be accompanied.

Watch out for more!!!

read less
Comments 2
Dislike Bookmark

About UrbanPro

UrbanPro.com helps you to connect with the best Guitar Classes in India. Post Your Requirement today and get connected.

Overview

Questions 297

Lessons 108

Total Shares  

+ Follow 89,749 Followers

Related Topics

Top Contributors

Connect with Expert Tutors & Institutes for Guitar

x

Ask a Question

Please enter your Question

Please select a Tag

UrbanPro.com is India's largest network of most trusted tutors and institutes. Over 25 lakh students rely on UrbanPro.com, to fulfill their learning requirements across 1,000+ categories. Using UrbanPro.com, parents, and students can compare multiple Tutors and Institutes and choose the one that best suits their requirements. More than 6.5 lakh verified Tutors and Institutes are helping millions of students every day and growing their tutoring business on UrbanPro.com. Whether you are looking for a tutor to learn mathematics, a German language trainer to brush up your German language skills or an institute to upgrade your IT skills, we have got the best selection of Tutors and Training Institutes for you. Read more