true

Find the best tutors and institutes for Violin

Find Best Violin Classes

Please select a Category.

Please select a Locality.

No matching category found.

No matching Locality found.

Outside India?

Search for topics

FADE TO BLACK violin tabs by Prince y kumar

Prince Y Kumar
17 Jun 0 0

FADE TO BLACK METALLICA VIOLIN TABS BY PRINCE Y KUMAR

Intro 1 First piece
E-------------------------------------------------⚡1st String
A------------------------------------------------⚡2nd String
D---------2---3---2------------2---0---2-----⚡3rd string
G----2------------------2-----------------------⚡4th String
Second piece
E----------------------------------------------⚡1st String
A----------------------------------------------⚡2nd String
D---------2---3---2----------2---0----2----⚡3rd String
G----1------------------1--------------------⚡4th String
Third piece
E-------------------------------------------------⚡1st String
A------------------------------------------------⚡2nd String
D---------2---3---2------------2---0---2-----⚡3rd String
G----2------------------2-----------------------⚡4th String
Fourth piece
E----------------------------------------------⚡1st String
A----------------------------------------------⚡2nd String
D----------1-----4----1----------1-------1--⚡3rd String
G----4-----------------------4--------1------⚡4th String

Intro 2 First part
E---------------1---------------1—2--3--⚡1st string
A-----1---3--------1-----------------------⚡2nd string
D-------------------------------------------⚡3rd string
G--------------------------------------------⚡4th string

 

E-----2--3---4----3---2---3----------------⚡1st string
A---------------------------------------------⚡2nd string
D---------------------------------------------⚡3rd string
G---------------------------------------------⚡4th string

E----4--3--2--1--2---1--------------0---1-------⚡1st string
A----------------------------------------------------⚡2nd string
D----------------------------------------------------⚡3rd string
G---------------------------------------------------⚡4th string

E-----2--1---0---1----0---------------------⚡1st string
A------------------------------3---0---1-----⚡2nd string
D----------------------------------------------⚡3rd string
G---------------------------------------------⚡4th string

E---------------------------2--1----2---3---⚡1st string
A-----3--2-----3--2-------------------------⚡2nd string
D---------------------------------------------⚡3rd string
G---------------------------------------------⚡4th string
Intro 2 Second part
E-------1-4-1-----------------2-1---------------0-----------------------------------⚡1st string
A---3------------3-1-----------------3-0-----------3-2-1--0-----0-1-------------⚡2nd string
D------------------------------------------------------------------------------1-------⚡3rd string
G---------------------------------------------------------------------------------------⚡4th string

 

 

E-------------------------------------------------------4--3--2--------⚡1st string
A-------------0-1-2-3----2-3-2-1-2-3--------2--------------------⚡2nd string
D-----1--2-------------------------------------------------------------⚡3rd string
G-----------------------------------------------------------------------⚡4th string

 

E-----1--2--1--------------1--2--1--------------------------⚡1st
A----------------3--1------------------3--0-----------------⚡2nd
D-------------------------------------------------------------⚡3rd
G-------------------------------------------------------------⚡4th

E-------1--2--1---------3-------2—1------1-2-1-------------------⚡1st
A-------------------3--------------------------------------------------⚡2nd
D-----------------------------------------------------------------------⚡3rd
G----------------------------------------------------------------------⚡4th
Intro 2 THIRD part
E------------------------------------------------0--1--2------1-2-1----3-⚡1st
A-------------------------------0--1--2--3---------------------------3----⚡2nd
D---------------0--1--2--3------------------------------------------------⚡3rd
G---1--2--3---------------------------------------------------------------⚡4th

Intro 3 First part
E--------------------0----------------------------⚡1st string
A----1-2-0------------------------0--2---------⚡2nd string
D-------------1---------------3------------------⚡3rd string
G-------------------------------------------------⚡4th string

 

Intro 3 Second part
E-----------------0------------------------------⚡1st string
A----2-0----------------------0--1-------------⚡2nd string
D-----------3-----------3-----------------------⚡3rd string
G------------------------------------------------⚡4th string
Intro 3 Third part
E------------------0----------------------------------------⚡1st string
A-----1-0----------------------0-------------0---0-1--0-⚡2nd string
D------------1------------3---------3---------------------⚡3rd string
G-----------------------------------------------------------⚡4th string

 

 

0 Dislike
Follow 1

Please Enter a comment

Submit

Other Lessons for You

Violin Swarashtakam (Malyalam)
: 1 2 1 1 2 ‍( ) Sa: 2nd string without any finger Bow only ( ) Ri: 2nd string index finger bottom-most ( ) Ga:...

Vijith V T | 13 Oct

0 0
0

BRAHMA MURARE (LINGASHTAKAM) - RAGAM: SIVARANJANI - THALAM: ADHI
ARO: S R2 G1 P D2 S AVA: S D2 P G1 R2 S * indicates lower octave. Stanza 1 (Same for Stanza 2,4,5,7,8) brahmamur ri sur rchita li ga S, RG G, GR G, GR G, RS nirmalabh sita obhita li gam...

Vijith V T | 12 Oct

0 0
0



Writing a 4 bar Melody for Beginners
Follow these steps to write a melody 1. Choose a key signature and a time signature 2. Start by writing a phrase for at least two bar 3. Use the same pattern but write on a different register. 4. Voila! You got a 4 bar melody.

Manoj Dinakaran | 24/09/2019

0 0
0

Looking for Violin Classes?

Find best Violin Classes in your locality on UrbanPro.

Are you a Tutor or Training Institute?

Join UrbanPro Today to find students near you
Sponsored
X

Looking for Violin Classes?

Find best tutors for Violin Classes by posting a requirement.

  • Post a learning requirement
  • Get customized responses
  • Compare and select the best

Looking for Violin Classes?

Find best Violin Classes in your locality on UrbanPro

Post your learning requirement

UrbanPro.com is India's largest network of most trusted tutors and institutes. Over 25 lakh students rely on UrbanPro.com, to fulfill their learning requirements across 1,000+ categories. Using UrbanPro.com, parents, and students can compare multiple Tutors and Institutes and choose the one that best suits their requirements. More than 6.5 lakh verified Tutors and Institutes are helping millions of students every day and growing their tutoring business on UrbanPro.com. Whether you are looking for a tutor to learn mathematics, a German language trainer to brush up your German language skills or an institute to upgrade your IT skills, we have got the best selection of Tutors and Training Institutes for you. Read more